Sep 4, 2009

ฟังเพลงสากล : Time After Time (Acoustic) - Rob Thomas



เนื้อเพลงสากล : Time After Time (Acoustic) - Rob Thomas

Tuning - Standard Tuning (E A D G B e)
Now there is no question that I can play this song – the only question is can I tab
this song? I tried to help everyone by tabbing the strumming pattern. Rob palm mutes
when he plays, you don’t really need to for it to sound good but if you want to then
palm mute during the first up stroke of every chord. Use your pinky on b-string (3
fret) and you will never have to move it. The strumming pattern may not be correct
but time of each chord is.

Note: Finger style strumming NO PICK. I find that I mute the low e string with my
index finger when strumming.

This was an awesome rendition/great performance of this song – have fun!

Into
x x x x x x x x x x
V ^ V ^ V^V^ V ^ V ^V^ V ^V^ V^ V^V^V V^ V^V^V V^
E|-0--0--2-2-2222--0-0--0-000--0--000--22-0000---00--2222---00--|
B|-3--3--3-3-3333--3-3--3-333--3--333--33-3333---33--3333---33--|
G|-0--0--2-2-2222--0-0--0-000--0--000--22-0000---00--2222---00--|
D|-0h22--0-0-0000--2-2--2-222p00h2222--00-2222---22--0000---22--|
A|-3--0------------2-2--3-333--3--333-----2222---33---------22--|
E|--------------------------------------------------------------|
x x x x
V^V V ^V^V V^V^V V^V^
E| -000—0-0000-22222-0000
B| -333-3-3333-33333-3333
G| -000-0-0000-22222-0000
D| -222p0h2222-00000-2222
A| -3333333333-------2222
E| ----------------------

Verse (option 1)
Lying in my bed I hear the clock tick and think of you………….
x mute here
V ^V ^ V ^
E|-----------|
B|-3--3-3-3-3|
G|-0--0-0-0-0| Repeat through the entire verse
D|-0h20-0-0-0|
A|-3--2-2-2-2|
E|----3-3-3-3|

Verse (option 2)
X mute here
V ^ V ^ V ^
E|------------|
B|-3---3-3-3-3|
G|-0---0-0-0-0| Repeat through the entire verse
D|-0-h20-0-0-0|
A|-0h3-2-2-2-2|
E|-----3-3-3-3|
-
Flashback warm nights almost left behind

V ^ V^^V V ^ V^^V V^ V^ V^V^V V^ V^ V^ V^^V
E|-2-2-2222--0-0-0000--00-22--00000--00 22-00-000-0|
B|-3-3-3333--3-3-3333--33-33 33333--33-33-33-333-3|
G|-2-2-2222--0-0-0000--00-22--00000--00-22-00-000-0|
D|-0-0-0000--2-2-2222—-22-00--22222--22-00-22-220h2|
A|-----------2-2-2222--33-----22222--33----22-333-3|
E|-------------------------------------------------|

^ suitcase of memories

Sometimes you picture me…..
Verse: option 1 or 2


Then you say go slow V the second hand unwinds
V ^ V^^V V ^ V^ V^ V^ V^V^V V^ V^ V^ V^
E|-2-2-2222--0-0-00-00-22-00000-00-22-00-00|
B|-3-3-3333--3-3-33-33-33-33333-33-33-33-33|
G|-2-2-2222--0-0-00-00-22-00000-00-22-00-00|
D|-0-0-0000--2-2-0h222-00-22222-22-00-22-22|
A|-----------2-2-33-33----22222-33----22-33|
E|-----------------------------------------|
^fall behind


if your lost you can look an you will find me….
V ^ V^^V V ^ V^^V V^ V ^ V^ V^^V V ^V^V V ^ V^
E|-2-2-2222--0-0-0000--00-0-0--22-2222-0-0000--0-0-00|
B|-3-3-3333--3-3-3333--33-3-3--33-3333-3-3333--3-3-33|
G|-2-2-2222--0-0-0000--00-0-0--22-2222-0-0000--0-0-00|
D|-0-0-0000--2-2-2222—-0h20-0--00-0000-2-2222--0h2-00|
A|-----------2-2-2222--33-2-2----------2-2222--3-3-22|
E|------------------------3-3----------------------33|
^If your lost……..
^time after time ^time after time



you say go slow I fall behind…….
V V^V V^ V^ V^ V^ V^ V^^VV
E|-------------0-000--00--22--00-00-22-00000
B|----------3--3-333--33--33--33-33-33-33333|
G|------2------0-000--00--22--00-00-22-00000|
D|---2---------2-222--00--00--22-00-00-22222
A|--3----------2-222--22------22-22----22222|
E|-3------------------33---------33---------|


It’s okaaaay

v
E|------0|
B|-----33|
G|----0-0|
D|---2--2|
A|--3---3|
E|-------|

blogger post up

LinkWithin

Related Posts Plugin for WordPress, Blogger...

1 biolyric

3 checkgoo2

4 gooth

5 goolucky

6 gooaccess

7 bloggermusic2008

8 randbsong

9 octoberup

21 augustup09.3

39 shoppingblog2008

40 shoppingblog2009

44 reviewintrend

54 mckinsss

76 gorodug

78 so.cw